Dj Ashba

accueil > Dj Ashba > accords

Dj Ashba

Mi Amor

Difficulté: DébutantDébutant

by edsooliveira

tuner corriger ajouter à songbook version imprimable version texte version rtf e-mail
accordstabbassetambourharmoniquesflûteéclatclavier Guitar Pro
accords

Mi Amor

	  


e|-----------------------------------------------------------------------------------------| 
B|-----------------------------------------------------------------------------------------| 
G|-----------10h12--10h12~~ --10--10 /12\ 10------------------10h12/15\13---13p12---13\12--| 
D|-------------------------------------------------------12-10~~ --------------------------| 
A|-----------------------------------------------------------------------------------------| 
E|---x-15\ --------------------------------------------------------------------------------| 

e|-------------------------------------------------------------------------------------| 
B|-------------------------------------------------------------------------------------| 
G|-10~~ ----10/15-- 10~~ -----12~~ -------13~~ ---------------------13\12---12--13p12--| 
D|--------8---------------------8-----------8------------/12/15/20\15------------------| 
A|-------------------------------------------------------------------------------------| 
E|-------------------------------------------------------------------------------------| 

1 (o:47) 

2 (1:03) & (2:18) 

e|--------------------------------------------|-----------------------------| 
B|--------------------------------------------|-----------------------------| 
G|--12\10\8---10b12r10p8--10--8~~ ----|-----10h12--10h12~~ --10--10/12\10---| 
D|--------------------------------------------|-----------------------------| 
A|--------------------------------------------|-----------------------------| 
E|--------------------------------------------|-----------------------------| 

----------------------------| 
----------------------------| 
----------------------------| 
------------------12--10~~ -| 
----------------------------| 
----------------------------| 

e|------------------------------------------------------------------------------------------| 
B|---------------------------16----------------------13--15~~ -----16~~ -----18~~ ---- 18/--| 
G|--10h12/15p13---13-------13~~ -------15------------------15--------15---------------------| 
D|----------------------------------------15------------------------------------------------| 
A|------------------------------------------------------------------------------------------| 
E|------------------------------------------------------------------------------------------| 

e|-----------------------------------------------------------------------------------------------| 
B|--9p8--8--9--8-----16--15--13-----------------16-16-16--15--------------16-15------------------| 
G|-------------------------------------15--13--12---------------------15--12-----------15--12~~ -| 
D|-----------------------------------------------------------------------------------------------| 
A|-----------------------------------------------------------------------------------------------| 
E|-----------------------------------------------------------------------------------------------| 

(1:20) 

e|--------------------------------------------------| 
B|---------------------------------------16---------| 
G|----------------17------15p13--13------13~~ ------| 
D|--10/14/15--------15------------------------------| 
A|--------------------------------------------------| 
E|--------------------------------------------------| 

------------------------------------------------| 
---------15p13---------------15p13--------------| 
------------15-------------------15-------------| 
-------------------15-15----------------15-15\--| 
------------------------------------------------| 
------------------------------------------------| 


e|----------------------------------------------------| 
B|----------------------------------------------------| 
G|--------------15------13p12--12--13p12h13p12(3x) ---| 
D|-10/14/15------15-----------------------------------| 
A|----------------------------------------------------| 
E|----------------------------------------------------| 

-----------------------------------------------------| 
---------------------------------------------13--15--| 
---17--19b20r19~~ ---/13-----------------------------| 
------/17--------------------------------------------| 
-----------------------------------------------------| 
-----------------------------------------------------| 


(1:38) & (3:01) 

e|-------------------------------------------------------------------------------| 
B|-18b20r18~~ --16h18p16---15h16p15h16 (x4)---13h15p13h15(x4)---11h13p11h13(x4)--| 
G|-------------------------------------------------------------------------------| 
D|-------------------------------------------------------------------------------| 
A|-------------------------------------------------------------------------------| 
E|-------------------------------------------------------------------------------| 

e|-----------------------------------------------------------------------------------|--| 
B|--9/---21p20--20---21p20--18b20r18p16--18b20r18p16--18--16------|---------------------| 
G|----------------------------------------------------------------------------------|---| 
D|----------------------------------------------------------------------------------|---| 
A|----------------------------------------------------------------------------------|---| 
E|----------------------------------------------------------------------------------|---| 

e|-------------------------------------------------------------------------------------| 
B|--13p12-13~~ -13p12- 13~~ -13p12------------13--15--15b16-----11------11~~ ----------| 
G|--------------------------------------------------13-----------------------------12--| 
D|----------------------------------------------13-------------------------------------| 
A|-------------------------------------------------------------------------------------| 
E|-------------------------------------------------------------------------------------| 

3 (1:48) & (2:03) 

4 (1:55) 

e|-------15-----13-------11h13p11---------|----------------------------13------11--------| 
B|-------------------------------------11~~ -|-13b14--11----11~~ ------------------------| 
G|-12-----12-------12------------------------|--------------10------10------10-------10--| 
D|----------------------------------------------|----------------------------------------| 
A|----------------------------------------------|----------------------------------------| 
E|----------------------------------------------|----------------------------------------| 

e|-10h11p10-----------11 ----------11----------------------|-------| 
B|--------------11--11b13------11b13-----11b13r11--9--|------------| 
G|--------------------------------------------------------------|--| 
D|--------------------------------------------------------------|--| 
A|------------------------------------------------------------ |---| 
E|--------------------------------------------------------------|--| 

Do nr.3 again!---after that it goes like this... 

e|----------13----------------------------13-------------------------------11------11-10-8--| 
B|----13b15-----13b15r13--11---13b15----13b15r13--11-----11b13--9--------------11-9-8~~ ----| 
G|------------------------------------------------------------------------------------------| 
D|------------------------------------------------------------------------------------------| 
A|------------------------------------------------------------------------------------------| 
E|------------------------------------------------------------------------------------------| 

Do nr.2 again! after that it goes like .. 

5 (3:03) 

e|-----------------------------------------------------------------------------------| 
B|-13p12-13~~ -13p12- 13~~ -13p12-----------13--15--15b16-----11------11~~ ----------| 
G|------------------------------------------------13-----------------------------12--| 
D|--------------------------------------------13-------------------------------------| 
A|-----------------------------------------------------------------------------------| 
E|-----------------------------------------------------------------------------------| 

e|---------15--------13--------11h13p11--------------------------------| 
B|--------------------------------------------11~~ --------------------| 
G|--12--------12--------12---------------------------------------------| 
D|---------------------------------------------------------------------| 
A|---------------------------------------------------------------------| 
E|---------------------------------------------------------------------| 

e|--------13-----------------------------13--------11-------10h11p10-----------11---------11--| 
B|--13b15--13b15r13--11~~ ------------------------------------------11--11b13----11b13--------| 
G|----------------------------------10--------10-------10-------------------------------------| 
D|--------------------------------------------------------------------------------------------| 
A|--------------------------------------------------------------------------------------------| 
E|--------------------------------------------------------------------------------------------| 

e|--------13--------------------------------------| 
B|--11b13----18b20--18--16--18b20r18p16---18--16--| 
G|------------------------------------------------| 
D|------------------------------------------------| 
A|------------------------------------------------| 
E|------------------------------------------------| 

e|-----------------------------------------------------------------------------------| 
B|-13p12-13~~ -13p12- 13~~ -13p12-----------13--15--15b16-----11------11~~ ----------| 
G|------------------------------------------------13-----------------------------12--| 
D|--------------------------------------------13-------------------------------------| 
A|-----------------------------------------------------------------------------------| 
E|-----------------------------------------------------------------------------------| 

e|-------15-----13-------11h13p11-----------------------| 
B|--------------------------------------11~~ -----------| 
G|-12-----12-------12-----------------------------------| 
D|------------------------------------------------------| 
A|------------------------------------------------------| 
E|------------------------------------------------------| 

e|---------13-----------------------------13------------------------------11-------11-10-8--| 
B|----13b15-----13b15r13--11---13b15----13b15r13--11-----11b13---9-------------11-9-8~~ ----| 
G|------------------------------------------------------------------------------------------| 
D|------------------------------------------------------------------------------------------| 
A|------------------------------------------------------------------------------------------| 
E|------------------------------------------------------------------------------------------| 

6 (Tremolo strumming!!) (3:48) 

e|---------------------------------------------------------------------------------| 
B|---------------------------------------------------------------------------------| 
G|---------------------------------------------------------------------------------| 
D|---------------------------------------------------------------------------------| 
A|----3--5--6--10--6------3--5--6--10--11--10--11--13--11--10--6--5--6---8--10--8--| 
E|---------------------------------------------------------------------------------| 

e|-----------------------------------------------------------------------------------------| 
B|-----------------------------------------------------------------------------------------| 
G|---------------------------------5--7--8--12--8----5--7--8--13---12--13--15—13-12-8-7-8--| 
D|-----------------------------------------------------------------------------------------| 
A|---6--8--6--5--6--5--3~~ ----------------------------------------------------------------| 
E|-----------------------------------------------------------------------------------------| 

(Tremolo strumming!!) 

(Tremolo strumming!!) 

e|---------------------------------------| 
B|---------------------------------------| 
G|---10--12--10--8--10--8--7--8--7--5~~ -| 
D|---------------------------------------| 
A|---------------------------------------| 
E|---------------------------------------| 

And finally the same part as Nr. 5 again! 
(4:18) 

e|------------------------------------------------------------------------------------| 
B|-13p12-13~~ -13p12- 13~~ -13p12------------13--15--15b16-----11------11~~ ----------| 
G|-------------------------------------------------13-----------------------------12--| 
D|---------------------------------------------13-------------------------------------| 
A|------------------------------------------------------------------------------------| 
E|------------------------------------------------------------------------------------| 

e|-------15--------13--------11h13p11--------------------------------| 
B|------------------------------------------11~~ --------------------| 
G|--12-------12--------12--------------------------------------------| 
D|-------------------------------------------------------------------| 
A|-------------------------------------------------------------------| 
E|-------------------------------------------------------------------| 

e|--------13-----------------------------13--------11-------10h11p10------------11---------11--| 
B|--13b15--13b15r13--11~~ -------------------------------------------11--11b13----11b13--------| 
G|--------------------------------10--------10-------10----------------------------------------| 
D|---------------------------------------------------------------------------------------------| 
A|---------------------------------------------------------------------------------------------| 
E|---------------------------------------------------------------------------------------------| 

e|------------------------------------------------| 
B|--11b13----18b20--18--16--18b20r18p16---18--16--| 
G|------------------------------------------------| 
D|------------------------------------------------| 
A|------------------------------------------------| 
E|------------------------------------------------| 

e|-----------------------------------------------------------------------------------| 
B|-13p12-13~~ -13p12- 13~~ -13p12-----------13--15--15b16-----11------11~~ ----------| 
G|------------------------------------------------13-----------------------------12--| 
D|--------------------------------------------13-------------------------------------| 
A|-----------------------------------------------------------------------------------| 
E|-----------------------------------------------------------------------------------| 

e|-------15-----13-------11h13p11-------------------| 
B|--------------------------------------11~~ -------| 
G|-12-----12-------12-------------------------------| 
D|--------------------------------------------------| 
A|--------------------------------------------------| 
E|--------------------------------------------------| 

e|----------13----------------------------13------------------------------11--------11-10-8----| 
B|----13b15-----13b15r13--11---13b15----13b15r13--11-----11b13---9---------------11-9-8\6/8~~ -| 
G|---------------------------------------------------------------------------------------------| 
D|---------------------------------------------------------------------------------------------| 
A|---------------------------------------------------------------------------------------------| 
E|---------------------------------------------------------------------------------------------| 
	  

Demande la vidéo "Mi Amor" - Download Dj Ashba Mi Amor mp3

il n'est pas une leçon vidéo pour cette chanson

demander

Envoyez vos commentaires ci-dessous. 140

0 commentaires

 
lestabs
rechercher
Petaxxon
défilement automatique temps agrandir réduire changement de couleur nasquer les accords dessins
tab accords montrent lestabs YouTube lestabs masquer onglets lestabs vers le haut tab