Nickelback

accueil > Nickelback > accords

Nickelback

Believe Or Not

Difficulté: aucun niveauaucun niveau

by tercmoraes

tuner corriger ajouter à songbook version imprimable version texte version rtf e-mail
accordstabbassetambourharmoniquesflûteéclatclavier Guitar Pro
accords

Believe Or Not

	  Guitar 1 - Ryan Peake 
Guitar 2 - Chad Kroeger 

Tuning: drop d    dAdGBE 

INTRO/VERSE - Palm Mute throughout 
Guitar 1 
E|-------------------------------------------------| 
B|-------------------------------------------------| 
G|-------------------------------------------------| 
d|-----12--12-----12----------1212-------10-----7--| 
A|-----8---7------8-----------8-8------------------| 
d|0000---0----xxx---xxxx-0000------77888----555----| 

VERSE 
Guitar 1 and 2 play INTRO 4x 

PRE Chorus 
Guitar 1 
E|------------------------------------------------------------------------| 
B|------------------------------------------------------------------------| 
G|------------------------------------------------------------------------| 
d|----10------10----------7------7----------10-----10------------12----12-| 
A|8-8----8-------8------5---5------7----8-8----8------8-------10----10-10-| 
d|8--------8-------8--5-------5------5--8--------8------8--10----------10-| 

Guitar 2 
Steadily hits these chords 
E|------------------------------------------------------------------------| 
B|------------------------------------------------------------------------| 
G|------------------------------------------------------------------------| 
d|10------------------7-----------------10-----------------12----------12-| 
A|8-------------------5-----------------8------------------10----------10-| 
d|8-------------------5-----------------8------------------10----------10-| 

Chorus 
Part 1 
Both Guitars - 2x 
E|------------------------------------------------| 
B|------------------------------------------------| 
G|------------------------------------------------| 
d|00---14--10-1010101010--00---7--12--1212121212--| 
A|00-0-12--8--8-8-8-8-8---00-0-5--10--1010101010--| 
d|00-0-12--8--8-8-8-8-8---00-0-5--10--1010101010--| 

Chorus 
Part 2 
Guitar 1 
E|-------------------------------------| 
B|-------------------------------------| 
G|-------------------------------------| 
d|----10-----10------------12-----12---| 
A|--8----8------8-------10----10--10---| 
d|8--------8------8--10-----------10---| 

Guitar 2 
E|-------------------------------------| 
B|-------------------------------------| 
G|-------------------------------------| 
d|10-----------------12-----------12---| 
A|8------------------10-----------10---| 
d|8------------------10-----------10---| 

INTRO/VERSE - 6x 
PREChorus 
Chorus - Part 1 - 4x 
Chorus - Part 2 

INTRO/VERSE - 2x 

BRIdGE 
Guitar 2 (acoustic) - 3x 
E|---------------------------------------------| 
B|---------------------------------------------| 
G|-------------------------------------0-------| 
d|------10--8--7----------7--5--3--0h3---------| 
A|----8----------8------5----------------------| 
d|0h8---------------0h5------------------------| 

Guitar 1 - with slide 
 .about....things....could...without.......advice....to get..along 
E|-----------------------------------------------------------------| 
B|-6s11----------10s8------8--------6s11---------10--8-----------6-| 
G|-----------------------------------------------------------------| 
d|-----------------------------------------------------------------| 
A|-----------------------------------------------------------------| 
d|-----------------------------------------------------------------| 

Guitar 1 after playing acoustic part 3x (played with slide riff above) 
E|-------------------------------------------------------------------------| 
B|--11-----11-----11-----11-----11-------10-----10-----10-----10-----10----| 
G|----10-----10-----10-----10-----10-------10-----10-----10-----10-----10--| 
d|12----12-----12-----12-----12-----12-10----10-----10-----10-----10-----10| 
A|-------------------------------------------------------------------------| 
d|-------------------------------------------------------------------------| 

Guitar 1 - acoustic 
E|---------------------------------------------------------------------| 
B|--11----11----11----11----11-------13----13----13----13----13--------| 
G|----10----10----10----10----10-------12----12----12----12----12------| 
d|12----12----12----12----12----12-14----14----14----14----14----14----| 
A|---------------------------------------------------------------------| 
d|---------------------------------------------------------------------| 

Guitar 2 - electric 
E|---------------------------------------------------------------------| 
B|---------------------------------------------------------------------| 
G|---------------------------------------------------------------------| 
d|10--------------------------------14---------------------------------| 
A|8---------------------------------12---------------------------------| 
d|8---------------------------------12---------------------------------| 

Guitar Solo 
Guitar 1 
E|--------------------------------------------------------------------------| 
B|--------------------------------------------------------------------------| 
G|12sss14--14s10-10s12-12s5--5s9--9s10s12--12-12s14-14s10-10s12-12s5-5s9-9s10 
d|x-sssx---x-sx--x-sx--x-sx--x-x--xsxssx---x--x-sx--x-sx--x-sx--x-sx-xsx-xsx| 
A|10sss12--12s8--8-s10-10s3--3s7--7s8ss10--10-10s12-12s8--8-s10-10s3-3s7-7s8| 
d|--------------------------------------------------------------------------| 

Guitar 2 plays Chorus Part 1 2x 

INTRO/VERSE 4x 
PREChorus 
Chorus - Part 1 - 4x 

Guitar 1 
E|--------------------------------------------------------------------| 
B|--------------------------------------------------------------------| 
G|--------------------------------------------------------------------| 
d|----10-----10------------12----------10-----10------------12----12--| 
A|--8----8------8----10-10----10-----8----8------8----10-10---10--10--| 
d|8--------8------8--10---------10-8--------8------8--10----------10--| 

Guitar 2 
E|--------------------------------------------------------------------| 
B|--------------------------------------------------------------------| 
G|--------------------------------------------------------------------| 
d|10-----------------12------------10-----------------12----------12--| 
A|8------------------10------------8------------------10----------10--| 
d|8------------------10------------8------------------10----------10--| 

INTRO/VERSE - 1x 
	  

Demande la vidéo "Believe Or Not" - Download Nickelback Believe Or Not mp3

il n'est pas une leçon vidéo pour cette chanson

demander

Envoyez vos commentaires ci-dessous. 140

0 commentaires

 
lestabs
rechercher
Petaxxon
défilement automatique temps agrandir réduire changement de couleur nasquer les accords dessins
tab accords montrent lestabs YouTube lestabs masquer onglets lestabs vers le haut tab