Nickelback

accueil > Nickelback > accords

Nickelback

Feelin' Way Too Damn Good

Difficulté: DébutantDébutant

by killer_dragoon

tuner corriger ajouter à songbook version imprimable version texte version rtf e-mail
accordstabbassetambourharmoniquesflûteéclatclavier Guitar Pro
accords

Feelin' Way Too Damn Good

Année: 2003 - Album: The Long Road

	  intro-riff 1 
 
e------------------------------------------------------| 
B------------------------------------------------------| 
G------------------------------------------------------| 
D-----------------0----00----00----00----| 
A-----------------9-4x-09-4x-10-4x-10-4x-|(Riff) 
E-----------------0----10----09----08----| 
 
poss do riff 
e--8--10--5--3--5--| 
B--8--10--5--3--5--|num lembro quantas vezes cada nota 
G--8--10--5--3--5--|escute a musik pra pegar o ritmo 
D--8--10--5--3--5--| 
A--8--10--5--3--5--|(poss riff) 
E--8--10--5--3--5--| 
depois o riff novamente 
depois o poss riff 
 
Refrão 
e--1-----3-----5--| 
B--1-----3-----5--| 
G--1--3--3--5--5--|o tempo eu não lembro corretamente 
D--1--3--3--5--5--|escute a musik ai veja onde trocar  
A--1--1--3--3--5--|as notas corretamente 
E--1-----3-----5--| 
depois novamente o riff 
o poss riff 
e o Refrão 
estere ele fala algumas coisas sem  tocar e entra denovo 
riff -- poss riff -- Refrão 

	  

Demande la vidéo "Feelin' Way Too Damn Good" - Download Nickelback Feelin' Way Too Damn Good mp3

il n'est pas une leçon vidéo pour cette chanson

demander

Envoyez vos commentaires ci-dessous. 140

0 commentaires

 
lestabs
rechercher
Petaxxon
défilement automatique temps agrandir réduire changement de couleur nasquer les accords dessins
tab accords montrent lestabs YouTube lestabs masquer onglets lestabs vers le haut tab