Nickelback

accueil > Nickelback > accords

Nickelback

Get Em Up

Difficulté: aucun niveauaucun niveau

by renejunior

tuner corriger ajouter à songbook version imprimable version texte version rtf e-mail
accordstabbassetambourharmoniquesflûteéclatclavier Guitar Pro
accords

Get Em Up

	  

Intro: 
Guitar 1: 
0:00 
E----------------------------------------------------------------| 
B----------------------------------------------------------------| 
G----------------------------------------------------------------| 
D----------------------------------------------------------------| 
A----------------------------------------------------------------| 
E--5-------------------------3----------5------------------------| 
A----0-3-5B6-0-5P3P0--0-3-5B6--0-5P3P0----0-3-5B6-0-5P3P0--------| 

Guitar 2: 
0:09 
E----------------------------------------------------------------| 
B----------------------------------------------------------------| 
G----------------------------------------------------------------| 
D--7-----------------7---------5---------------------------------| X2 
A--7-0-3-5-6-0-5P3P0-7-0-3-5-6-5-0-5P3P0-------------------------| 
E--5-0-3-5-6-0-5P3P0-5-0-3-5-6-3-0-5P3P0-------------------------| 
A----0-3-5B6-0-5P3P0---0-3-5B6---0-5P3P0-------------------------| 

Guitar 3 
0:16 
E-----------------------------------------------------------------| 
B--------------/8-8~--/8-8~--/8-8~------------/8-8~--/8-8~--/8-8~-| 
G--------------/9-9~--/9-9~--/9-9~------------/9-9~--/9-9~--/9-9~-| 
D---7-5-7-7~~~---------------------7-5-7-7~~~---------------------| 
A-----------------------------------------------------------------| 
E-----------------------------------------------------------------| 
A-----------------------------------------------------------------| 

E----------------------------------------------------------------| 
B----------------------------------------------------------------| 
G----------------------------------------------------------------| 
D--7-5-7-7~~~----------------------------------------------------| 
A----------------------------------------------------------------| 
E----------------------------------------------------------------| 
A----------------------------------------------------------------| 

Verse: 
Guitar 1: 
0:27 
E----------------------------------------------------------------| 
B----------------------------------------------------------------| 
G----------------------------------------------------------------| 
D----------------------------------------------------------------| X4 
A----------------------------------------------------------------| 
E--5--------------------------3----------------------------------| 
A----0-3-5B6-0-5P3P0--0-3-5B6---0-5P3P0--------------------------| 

E----------------------------------------------------------------| 
B----------------------------------------------------------------| 
G----------------------------------------------------------------| 
D--------------------------------------------------X4------------| 
A----------------------------------------------------------------| 
E--5-----------------5---------3------------------------5x-------| 
A----0-3-5B6-0-5P3P0---0-3-5B6---0-5P3P0-------------------------| 

Chorus: 
1:03 
Guitar 2 
E----------------------------------------------------------------| 
B----------------------------------------------------------------| 
G----------------------------------------------------------------| 
D--7-----------------7---------5---------------------------------| X4 
A--7-0-3-5-6-0-5P3P0-7-0-3-5-6-5-0-5P3P0-------------------------| 
E--5-0-3-5-6-0-5P3P0-5-0-3-5-6-3-0-5P3P0-------------------------| 
A----0-3-5B6-0-5P3P0---0-3-5B6---0-5P3P0-------------------------| 
                                 +  to + (don't play fourth time) 

1:21 
Guitar 2 
E----------------------------------------------------------------| 
B----------------------------------------------------------------| 
G----------------------------------------------------------------| 
D--7-----------------7---------5---------------------------------| X4 
A--7-0-3-5-6-0-5P3P0-7-0-3-5-6-5-0-5P3P0-------------------------| 
E--5-0-3-5-6-0-5P3P0-5-0-3-5-6-3-0-5P3P0-------------------------| 
A----0-3-5B6-0-5P3P0---0-3-5B6---0-5P3P0-------------------------| 


Guitar 3 
E-----------------------------------------------------------------| 
B--/8-8~--/8-8~--/8-8~------------/8-8~--/8-8~--/8-8~-------------| 
G--/9-9~--/9-9~--/9-9~------------/9-9~--/9-9~--/9-9~-------------| 
D----------------------7-5-7-7~~~----------------------7-5-7-7~~~-| 
A-----------------------------------------------------------------| 
E-----------------------------------------------------------------| 
A-----------------------------------------------------------------| 

POST-Chorus 
1:40 
E----------------------------------------------------------------| 
B----------------------------------------------------------------| 
G----------------------------------------------------------------| 
D----------------------------------------------------------------| 
A----------------------------------------------------------------| 
E--5-------------------------3----------5------------------------| 
A----0-3-5B6-0-5P3P0--0-3-5B6--0-5P3P0----0-3-5B6-0-5P3P0--------| 

Verse: 
1:48 
Guitar 1 
E----------------------------------------------------------------| 
B----------------------------------------------------------------| 
G----------------------------------------------------------------| 
D----------------------------------------------------------------| X2 
A----------------------------------------------------------------| 
E--5--------------------------3----------------------------------| 
A----0-3-5B6-0-5P3P0--0-3-5B6---0-5P3P0--------------------------| 
                                +  to + (don't play fourth time) 
Chorus: 
2:07 
Guitar 2 
E----------------------------------------------------------------| 
B----------------------------------------------------------------| 
G----------------------------------------------------------------| 
D--7-----------------7---------5---------------------------------| X4 
A--7-0-3-5-6-0-5P3P0-7-0-3-5-6-5-0-5P3P0-------------------------| 
E--5-0-3-5-6-0-5P3P0-5-0-3-5-6-3-0-5P3P0-------------------------| 
A----0-3-5B6-0-5P3P0---0-3-5B6---0-5P3P0-------------------------| 
                                 +  to + (don't play fourth time) 

2:24 
Guitar 2 
E----------------------------------------------------------------| 
B----------------------------------------------------------------| 
G----------------------------------------------------------------| 
D--7-----------------7---------5---------------------------------| X4 
A--7-0-3-5-6-0-5P3P0-7-0-3-5-6-5-0-5P3P0-------------------------| 
E--5-0-3-5-6-0-5P3P0-5-0-3-5-6-3-0-5P3P0-------------------------| 
A----0-3-5B6-0-5P3P0---0-3-5B6---0-5P3P0-------------------------| 


Guitar 3 
E-----------------------------------------------------------------| 
B--/8-8~--/8-8~--/8-8~------------/8-8~--/8-8~--/8-8~-------------| 
G--/9-9~--/9-9~--/9-9~------------/9-9~--/9-9~--/9-9~-------------| 
D----------------------7-5-7-7~~~----------------------7-5-7-7~~~-| 
A-----------------------------------------------------------------| 
E-----------------------------------------------------------------| 
A-----------------------------------------------------------------| 

BASS INTERLUDE 
2:44 

Verse: 
Guitar 1 
2:52 
E----------------------------------------------------------------| 
B----------------------------------------------------------------| 
G----------------------------------------------------------------| 
D----------------------------------------------------------------| X2 
A----------------------------------------------------------------| 
E--5--------------------------3----------------------------------| 
A----0-3-5B6-0-5P3P0--0-3-5B6---0-5P3P0--------------------------| 
                                +  to + (don't play fourth time) 

Chorus: 
3:10 
Guitar 2 
E----------------------------------------------------------------| 
B----------------------------------------------------------------| 
G----------------------------------------------------------------| 
D--7-----------------7---------5---------------------------------| X4 
A--7-0-3-5-6-0-5P3P0-7-0-3-5-6-5-0-5P3P0-------------------------| 
E--5-0-3-5-6-0-5P3P0-5-0-3-5-6-3-0-5P3P0-------------------------| 
A----0-3-5B6-0-5P3P0---0-3-5B6---0-5P3P0-------------------------| 
                                 +  to + (don't play fourth time) 

3:28 
Guitar 2 
E----------------------------------------------------------------| 
B----------------------------------------------------------------| 
G----------------------------------------------------------------| 
D--7-----------------7---------5---------------------------------| X4 
A--7-0-3-5-6-0-5P3P0-7-0-3-5-6-5-0-5P3P0-------------------------| 
E--5-0-3-5-6-0-5P3P0-5-0-3-5-6-3-0-5P3P0-------------------------| 
A----0-3-5B6-0-5P3P0---0-3-5B6---0-5P3P0-------------------------| 


Guitar 3 
E-----------------------------------------------------------------| 
B--/8-8~--/8-8~--/8-8~------------/8-8~--/8-8~--/8-8~-------------| 
G--/9-9~--/9-9~--/9-9~------------/9-9~--/9-9~--/9-9~-------------| 
D----------------------7-5-7-7~~~----------------------7-5-7-7~~~-| 
A-----------------------------------------------------------------| 
E-----------------------------------------------------------------| 
A-----------------------------------------------------------------| 

Guitar 2 
3:46 
E----------------------------------------------------------------| 
B----------------------------------------------------------------| 
G----------------------------------------------------------------| 
D----------------------------------------------------------------| 
A-----0x---------------------------------------------------------| 
E-----0x---------------------------------------------------------| 
A-----0x---------------------------------------------------------| 

END 

Tab Legend: 

B=Bend 
P=Pull Off 
/=Slide Down Neck 
~=Vibrato 
X#=How Many Times You Play Something 
x=Mute The Strings 
	  

Demande la vidéo "Get Em Up" - Download Nickelback Get Em Up mp3

il n'est pas une leçon vidéo pour cette chanson

demander

Envoyez vos commentaires ci-dessous. 140

0 commentaires

 
lestabs
rechercher
Petaxxon
défilement automatique temps agrandir réduire changement de couleur nasquer les accords dessins
tab accords montrent lestabs YouTube lestabs masquer onglets lestabs vers le haut tab