Nickelback

accueil > Nickelback > accords

Nickelback

Hangnail

Difficulté: DébutantDébutant

by europeu

tuner corriger ajouter à songbook version imprimable version texte version rtf e-mail
accordstabbassetambourharmoniquesflûteéclatclavier Guitar Pro
accords

Hangnail

Année: 2001 - Album: Silver Side Up

(Kroeger / Nickelback)

	  Guitar Notation Key: 
<5> = Artificial Harmonic 
 5* = Natural Harmonic 
 * = Palm Mute 
 x = Muted Note 
 / = Slide Up 
 \ = Slide Down 
 b = Bend 
 h = Hammer On 
 P = Pull Off 
hp = Hammer On Pull Off 
/hp = Slide Up Hammer On Pull Off 
\hp = Slide Down Hammer On Pull Off 
 ~ = Vibrato 
----------------------------------------x = Pick Scrape Down The Whole Neck 
x---------------------------------------- = Pick Scrape Up The Whole Neck 
x---------------------------------------x = Pick Scrape Up Then Down The Hole Neck 
  
 
Intro/play th intro twice 
e|--------------------------------------------------------------| 
B|--------------------------------------------------------------| 
G|--------------------------------------------------------------| 
D|-/9-9--6-7--6-7-6-7-6-9-11-9-9\--6-7--6-7-6-7-6-12-14-12-12\--| 
A|-/9-9--6-7--6-7-6-7-6-9-11-9-9\--6-7--6-7-6-7-6-12-14-12-12\--| 
D|-/9-9--6-7--6-7-6-7-6-9-11-9-9\--6-7--6-7-6-7-6-12-14-12-12\--| 
 
e|---------------------------------| 
B|---------------------------------| 
G|---------------------------------| 
D|-6-7--6-7-6-7-6-9-2--0--/7--6-7--| 
A|-6-7--6-7-6-7-6-9-2--0--/7--6-7--| 
E|-6-7--6-7-6-7-6-9-2--0--/7--6-7--| 
 
verse 1 
e|-------------------------| 
B|-------------------------| 
G|-------------------------| 
D|-0-----00-2h3-3p0-3h5-5--| 
A|-----0-00-2h3-3p0-3h5-5--| 
D|---0---00-2h3-3p0-3h5-5--| 
         ** 
e|-------------| 
B|-------------| 
G|-------------| 
D|-7-7-7--6-5--| 
A|-7-7-7--6-5--| 
D|-7-7-7--6-5--| 
 
Chorus 
Wah Wah pedal kicks in here 
e|-------------| 
B|-------------| 
G|-4--7--4--7--| 
D|-4--7--4--7--| 
A|-2--5--2--5--| 
D|-------------| 
play this bit on the final chord of the pre Chorus| 
e|------------------|-----------------------------| 
B|------------------|-----------------------------| 
G|-7-77-77-7-77777--|--<--------------------------| 
D|-7-77-77-7-77777--|--<--------------------------| 
A|-5-55-55-5-55555--|--<--------------------------| 
D|------------------|-Distortion kicks in here----|     
   * ** ** * ***** 
Pam mute this bit      * = Palm Mute 
 
e|---------------------------------------------| 
B|---------------------------------------------| 
G|-4--4--4-4-7--7--7-7-9--9--9-9--9--9-9-7--7--| 
D|-4--4--4-4-7--7--7-7-9--9--9-9--9--9-9-7--7--| 
A|-2--2--2-2-5--5--5-5-7--7--7-7--7--7-7-5--5--| 
D|---------------------------------------------| 
Play this at the end of the Chorus 
e|-------------| 
B|-------------| 
G|-------------| 
D|-7-7-7--6-5--| 
A|-7-7-7--6-5--| 
D|-7-7-7--6-5--| 
This time, only play the intro once then go straight into verse 2 
e|--------------------------------------------------------------| 
B|--------------------------------------------------------------| 
G|--------------------------------------------------------------| 
D|-/9-9--6-7--6-7-6-7-6-9-11-9-9\--6-7--6-7-6-7-6-12-14-12-12\--| 
A|-/9-9--6-7--6-7-6-7-6-9-11-9-9\--6-7--6-7-6-7-6-12-14-12-12\--| 
D|-/9-9--6-7--6-7-6-7-6-9-11-9-9\--6-7--6-7-6-7-6-12-14-12-12\--| 
 
e|---------------------------------| 
B|---------------------------------| 
G|---------------------------------| 
D|-6-7--6-7-6-7-6-9-2--0--/7--6-7--| 
A|-6-7--6-7-6-7-6-9-2--0--/7--6-7--| 
E|-6-7--6-7-6-7-6-9-2--0--/7--6-7--| 
 
Verse 2 
e|-------------------------| 
B|-------------------------| 
G|-------------------------| 
D|-0-----00-2h3-3p0-3h5-5--| 
A|-----0-00-2h3-3p0-3h5-5--| 
D|---0---00-2h3-3p0-3h5-5--| 
         ** 
 
Wah Wah pedal kicks in here 
e|-------------| 
B|-------------| 
G|-4--7--4--7--| 
D|-4--7--4--7--| 
A|-2--5--2--5--| 
D|-------------| 
play this bit on the final chord of the pre Chorus| 
e|------------------|                             | 
B|------------------| Use distortion for this bit | 
G|-7-77-77-7-77777--| <---------------------------| 
D|-7-77-77-7-77777--| <---------------------------| 
A|-5-55-55-5-55555--| <---------------------------| 
D|------------------| Distortion kicks in here                            | 
   * ** ** * ***** 
 
e|---------------------------------------------| 
B|---------------------------------------------| 
G|-4--4--4-4-7--7--7-7-9--9--9-9--9--9-9-7--7--| 
D|-4--4--4-4-7--7--7-7-9--9--9-9--9--9-9-7--7--| 
A|-2--2--2-2-5--5--5-5-7--7--7-7--7--7-7-5--5--| 
D|---------------------------------------------| 
 
e|-------------------------------------------| 
B|-------------------------------------------| 
G|-4--4--44-7--7--77-9--9--9-9--9--9-9-7--7--| 
D|-4--4--44-7--7--77-9--9--9-9--9--9-9-7--7--| 
A|-2--2--22-5--5--55-7--7--7-7--7--7-7-5--5--| 
D|-------------------------------------------| 
         **       **         
e|-------------| 
B|-------------| 
G|-------------| 
D|-7-7-7--6-5--| 
A|-7-7-7--6-5--| 
D|-7-7-7--6-5--| 
 
Bridge 
E|------------------------------------------------------| 
B|-3/4\3--------3/4\3--------3/4\3--------3/4\3---------| 
G|------------------------------------------------------| 
D|-------77-7-4-------77-7-4-------44-4-7-------44-4-7--| 
A|-------55-5-2-------55-5-2-------22-2-5-------22-2-5--| 
D|------------------------------------------------------| 
         **           **           **           ** 
Chorus 
Wah Wah pedal kicks in here 
e|-------------| 
B|-------------| 
G|-4--7--4--7--| 
D|-4--7--4--7--| 
A|-2--5--2--5--| 
D|-------------| 
play this bit on the final chord of the pre Chorus| 
e|------------------|-----------------------------| 
B|------------------|-Use distortion for this bit-| 
G|-7-77-77-7-77777--|-<---------------------------| 
D|-7-77-77-7-77777--|-<---------------------------| 
A|-5-55-55-5-55555--|-<---------------------------| 
D|------------------|-Distortion kicks in here----| 
   * ** ** * ***** 
 
e|---------------------------------------------| 
B|---------------------------------------------| 
G|-4--4--4-4-7--7--7-7-9--9--9-9--9--9-9-7--7--| 
D|-4--4--4-4-7--7--7-7-9--9--9-9--9--9-9-7--7--| 
A|-2--2--2-2-5--5--5-5-7--7--7-7--7--7-7-5--5--| 
D|---------------------------------------------| 
 
e|-------------------------------------------| 
B|-------------------------------------------| 
G|-4--4--44-7--7--77-9--9--9-9--9--9-9-7--7--| 
D|-4--4--44-7--7--77-9--9--9-9--9--9-9-7--7--| 
A|-2--2--22-5--5--55-7--7--7-7--7--7-7-5--5--| 
D|-------------------------------------------| 
         **       **         
 
e|--------------------------------------------------------------| Play 
B|--------------------------------------------------------------| This 
G|--------------------------------------------------------------| Bit 
D|-/9-9--6-7--6-7-6-7-6-9-11-9-9\--6-7--6-7-6-7-6-12-14-12-12\--| Twice| 
A|-/9-9--6-7--6-7-6-7-6-9-11-9-9\--6-7--6-7-6-7-6-12-14-12-12\--| <----| 
D|-/9-9--6-7--6-7-6-7-6-9-11-9-9\--6-7--6-7-6-7-6-12-14-12-12\--| <----| 
this bit  
e|---------------------------------| 
B|---------------------------------| 
G|---------------------------------| 
D|-6-7--6-7-6-7-6-9-2--0--/7--6-7--| 
A|-6-7--6-7-6-7-6-9-2--0--/7--6-7--| 
E|-6-7--6-7-6-7-6-9-2--0--/7--6-7--| 
 
B|-------------| 
G|-------------| 
D|-7-7-7--6-5--|  
A|-7-7-7--6-5--|  
D|-7-7-7--6-5--|  
 
e|-------------------------------------------------------| 
B|-------------------------------------------------------| 
G|-------------------------------------------------------| Play this to end the song| 
D|-2--0--/7--6-7--|-2--0--/7--6-7--|-2--0--/7--6-7--9-9--| <------------------------| 
A|-2--0--/7--6-7--|-2--0--/7--6-7--|-2--0--/7--6-7--9-9--| <------------------------| 
D|-2--0--/7--6-7--|-2--0--/7--6-7--|-2--0--/7--6-7--9-9--| <------------------------| 
 
 
 
 

	  

Demande la vidéo "Hangnail" - Download Nickelback Hangnail mp3

il n'est pas une leçon vidéo pour cette chanson

demander

Envoyez vos commentaires ci-dessous. 140

0 commentaires

 
lestabs
rechercher
Petaxxon
défilement automatique temps agrandir réduire changement de couleur nasquer les accords dessins
tab accords montrent lestabs YouTube lestabs masquer onglets lestabs vers le haut tab