Nickelback

accueil > Nickelback > accords

Nickelback

In Front of Me

Difficulté: aucun niveauaucun niveau

by gao2006

tuner corriger ajouter à songbook version imprimable version texte version rtf e-mail
accordstabbassetambourharmoniquesflûteéclatclavier Guitar Pro
accords

In Front of Me

	  In Front of Me 
    
 
 
 
Intro:                                              
e|------------------------------------------------------------------- 
B|------------------------------------------------------------------- 
G|------------------------------------------------------------------- 
D|--------9--------9--------------9--------9--------------9--------9- 
A|-----7--------7--------7-----7--------7--------7-----7--------7---- 
E|--9--------9--------9-----7--------7--------7-----6--------6------- 
                                                                         
                                   Pre-Chorus: 
e---------------------------------|-------------------- 
B---------------------------------|-------------------- 
G---------------------------------|-------------------- 
D---------------9--------9--------|---4--7--4--7--4---- 
A------7-----7--------7--------7--|---4--7--4--7--4---- 
E---6-----5--------5--------5-----|---2--5--2--5--2---- 
                                                                         
 
                Chorus:                             
e--------------|---------------|--------------------------| 
B--------------|---------------|--------------------------| 
G--------------|---------------|--5--7--5--7--5--7--5--7--| 
D---7--4--7----|--2--4--7--10--|--5--7--5--7--5--7--5--7--| 
A---7--4--7----|--2--4--7--10--|--3--5--3--5--3--5--3--5--| 
E---5--2--5----|--0--2--5--8---|--------------------------| 
 
 
 
 

	  

Demande la vidéo "In Front of Me" - Download Nickelback In Front of Me mp3

il n'est pas une leçon vidéo pour cette chanson

demander

Envoyez vos commentaires ci-dessous. 140

0 commentaires

 
lestabs
rechercher
Petaxxon
défilement automatique temps agrandir réduire changement de couleur nasquer les accords dessins
tab accords montrent lestabs YouTube lestabs masquer onglets lestabs vers le haut tab