Nickelback

accueil > Nickelback > accords

Nickelback

Sea Groove

Difficulté: aucun niveauaucun niveau

by tamamoreira

tuner corriger ajouter à songbook version imprimable version texte version rtf e-mail
accordstabbassetambourharmoniquesflûteéclatclavier Guitar Pro
accords

Sea Groove

Année: 2002 - Album: Curb

	  Intro 

D|---------------------------------------------------------------------------| 
A|---------------------------------------------------------------------------| 
F|---------------------------------------------------------------------------| 
C|---------------------------------------------------------------------------| 
G|-----7--5--5---------------------------------------------------------------| Repeat 
C|-2-3----0--0---------------------------------------------------------------| 


Verse 

D|---------------------------------------------------------------------------| 
A|---------------------------------------------------------------------------| 
F|---------------------------------------------------------------------------| 
C|---------------------------------------------------------------------------| Repeat 
G|-7-9-x-x-9-x-x-9-x-x-9-x-x-7-8---------------------------------------------| 
C|---------------------------------------------------------------------------| 


Intro 

D|---------------------------------------------------------------------------| 
A|---------------------------------------------------------------------------| 
F|---------------------------------------------------------------------------| 
C|---------------------------------------------------------------------------| 
G|-----7--5--5---------------------------------------------------------------| Repeat 
C|-2-3----0--0---------------------------------------------------------------| 



Chorus 

D|---------------------------------------------------------------------------| 
A|---------------------------------------------------------------------------| 
F|---------------------------------------------------------------------------| 
C|-5------3---5--------------------------------------------------------------| Repeat 
G|-5-x12--3---5-x8-----------------------------------------------------------| 
C|-5------3---5--------------------------------------------------------------| 


(Bridge) 

D|---------------------------------------------------------------------------| 
A|---------------------------------------------------------------------------| 
F|-------5-------------------------------------------------------------------| 
C|--3----5----5--------------------------------------------------------------| Repeat 
G|--3----3----5--------------------------------------------------------------| 
C|--3---------5--------------------------------------------------------------| 


(Solo) 

D|---------------------------------------------------------------------------| 
A|---------------------------------------------------------------------------| 
F|---------------------------------------------------------------------------| 
C|---------------------------------------------------------------------------| 
G|-2h3-x-x-x-x-x-x-x-x-2h3-x-x-x-x-x-x-x-x-2h3-3-3-3-3-3-3-3-3-3-3-3-3-------| 
C|---------------------------------------------------------------------------| 


D|---------------------------------------------------------------------------| 
A|---------------------------------------------------------------------------| 
F|---------------------------------------------------------------------------| 
C|-2h4-4-4-4-4-------------2h4-4-4-4-4-4-4-4-2h4-4-4-4-4-2h4-4-4-4-4-4-4-4-4-| 
G|-------------2h3-3-3-3-3---------------------------------------------------| 
C|---------------------------------------------------------------------------| 


D|---------------------------------------------------------------------------| 
A|---------------------------------------------------------------------------| 
F|------------------------------------------------9h11-11-11-11-11-----------| 
C|-9h10-10-10-10-10-9h10-10-10-10-10-10-10-10-10-----------------------------| 
G|---------------------------------------------------------------------------| 
C|---------------------------------------------------------------------------| 

D|---------------------------------------------------------------------------| 
A|----------------------------------------------12b13------------------------| 
F|------------------------------9h11-11-11-11-11-----------------------------| 
C|-9h10-10-10-10-10-10-10-10-10----------------------------------------------| 
G|----------------------------------------------------x-x-x-x----------------| 
C|----------------------------------------------------x-x-x-x--0-------------| 

Verse 

D|---------------------------------------------------------------------------| 
A|---------------------------------------------------------------------------| 
F|---------------------------------------------------------------------------| 
C|---------------------------------------------------------------------------| Repeat 
G|-7-9-x-x-9-x-x-9-x-x-9-x-x-7-8---------------------------------------------| 
C|---------------------------------------------------------------------------| 

Chorus 

D|---------------------------------------------------------------------------| 
A|---------------------------------------------------------------------------| 
F|---------------------------------------------------------------------------| 
C|-5------3---5--------------------------------------------------------------| Repeat 
G|-5-x12--3---5-x8-----------------------------------------------------------| 
C|-5------3---5--------------------------------------------------------------| 


Outro 
D|---------------------------------------------------------------------------| 
A|---------------------------------------------------------------------------| 
F|---------------------------------------------------------------------------| 
C|---------------------------------------------------------------------------| 
G|-----7--5--5---------------------------------------------------------------| Repeat 
C|-2-3----0--0---------------------------------------------------------------| 



************************************ 

| x  Dead note 
| h  Hammer-on 
| b  Bend 

************************************ 
	  

Demande la vidéo "Sea Groove" - Download Nickelback Sea Groove mp3

il n'est pas une leçon vidéo pour cette chanson

demander

Envoyez vos commentaires ci-dessous. 140

0 commentaires

 
lestabs
rechercher
Petaxxon
défilement automatique temps agrandir réduire changement de couleur nasquer les accords dessins
tab accords montrent lestabs YouTube lestabs masquer onglets lestabs vers le haut tab