Nickelback

accueil > Nickelback > accords

Nickelback

Sex

Difficulté: ExpertExpert

by europeu

tuner corriger ajouter à songbook version imprimable version texte version rtf e-mail
accordstabbassetambourharmoniquesflûteéclatclavier Guitar Pro
accords

Sex

	  Tuning : Drop C (1 step down then drop D) 

Intro (palm mute all the open strings) 
------------------------------| 
------------------------------| 
-----7--------------------5---| 
-----7------3------5------5-0-| 
-0-0-5--0-0-3--0-0-5--0-0-3-0-| 
-0-0----0-0-3--0-0-5--0-0---0-| x 4 

------------------------------| 
------------------------------| 
------------------------------| 
-----3------5------3------5-0-| 
-0-0-3--0-0-5--0-0-3--0-0-5-0-| 
-0-0-3--0-0-5--0-0-3--0-0-5-0-| x 4 

Guitar 2 
-------------------------------| 
-------------------------------| 
-7-7-7-7-7-7-7-7-7-7-7-7-7-7-7-| 
-------------------------------| 
-------------------------------| 
-------------------------------| 
crecendo in then just keep hitting that note 

Verse 
---------------------------------| 
------------8----------8-10-8----| 
-7--10-7-10----7--10-7--------10-| 
---------------------------------| 
---------------------------------| 
---------------------------------| 

Guitar 2 
----------------------------------| 
----------------------------------| 
----------------------------------| 
---3-5--------5-7---------5-7-5-3-| 
-5-------5--5-----5--5--5---------| 
----------------------------------| 

After the first time of above^^^^ one guitar plays 
---------------------| 
------10----------8--| 
-7----------10-------| 
---------------------| 
---------------------| 
---------------------| till the pre-Chorus 

Pre-Chorus 
------------------------------------| 
-----6--5-5-6------8--6-6-8---------| 
---7-------------7---------------7~-| 
-------------------------------5----| 
-5-------------5-------------5------| 
------------------------------------| 
 S.            E.            X. 

Chorus 
-------------------------------------------------| 
-------------------------------------------------| 
-7-7-7--7--7-------------------------5-5-5--5--5-| 
-7-7-7--7--7-8-8-8--8--8-5-5-5--5--5-5-5-5--5--5-| 
-5-5-5--5--5-8-8-8--8--8-5-5-5--5--5-3-3-3--3--3-| 
-------------8-8-8--8--8-5-5-5--5--5-------------| x 2 

then play second part of intro x 2 

Verse two is basically the same 

Chorus 2 play guitar x 4 

Interlude 
Guitar 1 (plam mute open strings) 
--------------------------------------------------| 
--------------------------------------------------| 
------------------------------7-----------------5-| 
------------------------------7-----3-----5-----5-| 
-0-0--0-0--0-0--0-0--0000-0-0-5-0-0-3-0-0-5-0-0-3-| 
-0-0--0-0--0-0--0-0--0000-0-0---0-0-3-0-0-5-0-0---| x 8 

Guitar 2 after the 4th time of guitar 1 
------------------------| 
-8p6---10p8---8p6-8p6---| 
-----7------7---------7-| 
------------------------| 
------------------------| 
------------------------| x 4 

-13p10---15p10---13p10-13p10---12p8---| 
------10------10------------10-----10-| 
--------------------------------------| 
--------------------------------------| 
--------------------------------------| 
--------------------------------------| x 3 

-13p1013p1013p1013p1015p1015p10-17~-| 
------------------------------------| 
------------------------------------| 
------------------------------------| 
------------------------------------| 
------------------------------------| 

Chorus kinda thing near the end 
-5--5--5--5-------------------------------------| 
-6--6--6--6-11-11-11-11-------------13-13-13-13-| 
-7--7--7--7-10-10-10-10-12-12-12-12-12-12-12-12-| 
-7--7--7--7-8--8--8--8--12-12-12-12-10-10-10-10-| 
-5--5--5--5-8--8--8--8--10-10-10-10-10-10-10-10-| 
------------8--8--8--8--------------10-10-10-10-| x 2 

Then Chorus x 6 

then interlude bit x 1 to finish. 
	  

Demande la vidéo "Sex" - Download Nickelback Sex mp3

il n'est pas une leçon vidéo pour cette chanson

demander
Avance 1 tonAvance 1 ton
Half key step upAvance 1/2 ton
Half key step downRecule 1/2 ton
Full key step downRecule 1 ton

Envoyez vos commentaires ci-dessous. 140

0 commentaires

 
lestabs
rechercher
Petaxxon
défilement automatique temps agrandir réduire changement de couleur nasquer les accords dessins
tab accords montrent lestabs YouTube lestabs masquer onglets lestabs vers le haut tab