Nickelback

accueil > Nickelback > accords

Nickelback

Someday (solo)

Difficulté: DébutantDébutant

by Luiz Bozo

tuner corriger ajouter à songbook version imprimable version texte version rtf e-mail
accordstabbassetambourharmoniquesflûteéclatclavier Guitar Pro
accords

Someday (solo)

	  e|-------------------------|-------------------------|-------------------------|-------------------------|    
B|-------------------------|-------------------------|-------------------------|--------7-7--------------|    
G|--4-4-4----6-6-6--7-7----|---------9-9---5-5--6-6--|---4-4-4---6-6-6--7-7----|--------------7-7---9--7-|   
D|-------------------------|---7-7-------------------|-------------------------|---7-7-------------------|  
A|-------------------------|-------------------------|-------------------------|-------------------------|    
E|-------------------------|-------------------------|-------------------------|-------------------------|  
 
e|-------------------------|-------------------------|  
B|-------------------------|---------------7---------|   
G|--4-4-4----6-6-6--7-7----|---------9----------7~~~-|   
D|-------------------------|-7-7-7-------------------| 
A|-------------------------|-------------------------|  
E|-------------------------|-------------------------|   

	  

Demande la vidéo "Someday (solo)" - Download Nickelback Someday (solo) mp3

il n'est pas une leçon vidéo pour cette chanson

demander

Envoyez vos commentaires ci-dessous. 140

0 commentaires

 
lestabs
rechercher
Petaxxon
défilement automatique temps agrandir réduire changement de couleur nasquer les accords dessins
tab accords montrent lestabs YouTube lestabs masquer onglets lestabs vers le haut tab