Nickelback

accueil > Nickelback > accords

Nickelback

Where Do I Hide

Difficulté: ExpertExpert

tuner corriger ajouter à songbook version imprimable version texte version rtf e-mail
accordstabbassetambourharmoniquesflûteéclatclavier Guitar Pro
accords

Where Do I Hide

Année: 2001 - Album: Silver Side Up

(Kroeger / Nickelback)

	   
Tuning: Drop one whole step and then drop D (C G C F A D) 
 
Intro: 
 
------------------------------------------------------------------- 
------------------------------------------------------------------- 
------------------------------------------------------------------- 
------------------------------------------------------------------- 
------------------------------------------------------------------- 
-11--11-9-11-14--14-14-0-14-14?16b(half)-14-16b(whole)-16-14-11-11? 
 
------------------------------------------------------------- 
------------------------------------------------------------- 
------------------------------------------------------------- 
--------------------------------9-9--9-9--9------------------ 
--------------------------------9-9--9-9--9------------------ 
-0-9-11--11-9-11-14-14-14-11-9--9-9--9-9--9------------------ 
 
------------------------------------------------------------- 
------------------------------------------------------------- 
------------------------------------------------------------- 
--11--9-11-9-9-9-9-9---4--2-4-4--2-0-11---------------------- 
--11--9-11-9-9-9-9-9---4--2-4-4--2-0-11---------------------- 
--11--9-11-9-9-9-9-9---4--2-4-4--2-0-11---------------------- 
 
------------------------------------------------------------- 
------------------------------------------------------------- 
------------------------------------------------------------- 
--11--9-11-9-9-9-9-9---4--2-4-4--2-0-11---------------------- 
--11--9-11-9-9-9-9-9---4--2-4-4--2-0-11---------------------- 
--11--9-11-9-9-9-9-9---4--2-4-4--2-0-11---------------------- 
 
Verse 1: 
 
------------------------------------------------------------- 
------------------------------------------------------------- 
------------------------------------------------------------- 
------------------------------------------------------------- 
------------------------------------------------------------- 
--11-9-11-14-11-9-11---11-9-11-14-11-9-11?----11-11-11-11---- 
 
------------------------------------------------------------- 
------------------------------------------------------------- 
------------------------------------------------------------- 
-------------------------------------------14---------------- 
-------------------------------------------14---------------- 
--11-9-11-14-11-9-11---11-9-11-14-11-9-11--14---------------- 
 
------------------------------------------------------------- 
------------------------------------------------------------- 
------------------------------------------------------------- 
------------------------------------------------------------- 
----------------------?Got a criminal record,?--------------- 
--11-9-11-14-11-9-11----------------------------------------- 
 
------------------------------------------------------------- 
------------------------------------------------------------- 
------------------------------------------------------------- 
------------------------------------------------------------- 
--------------------?-?I can?t cross state lines.?----------- 
--11-9-11-14-11-9-11----------------------------------------- 
 
------------------------------------------------------------- 
------------------------------------------------------------- 
------------------------------------------------------------- 
------------------------------------------------------------- 
----------------------?First on the bad list,?--------------- 
--11-9-11-14-11-9-11----------------------------------------- 
 
------------------------------------------------------------- 
------------------------------------------------------------- 
------------------------------------------------------------- 
------------------------------------------------14----------- 
----------------------?and your last on mine.?--14----------- 
--11-9-11-14-11-9-11----------------------------14----------- 
 
------------------------------------------------------------- 
------------------------------------------------------------- 
------------------------------------------------------------- 
------------------------------------------------------------- 
----------------------?Lookin? for a scapegoat.??------------ 
--11-9-11-14-11-9-11-----------------------------0-0-0-0-0-0- 
                                                 ....p.m..... 
 
------------------------------------------------------------- 
------------------------------------------------------------- 
------------------------------------------------------------- 
------------------------------------------------------------- 
----------------------?I?m long past due.??------------------ 
--11-9-11-14-11-9-11------11--11--11--11--------------------- 
 
------------------------------------------------------------- 
------------------------------------------------------------- 
------------------------------------------------------------- 
------------------------------------------------------------- 
----------------------?Walkin? down the aisle,?-?------------ 
--11-9-11-14-11-9-11-----------------------------0-0-0-0-0-0- 
                                                 ....p.m..... 
 
------------------------------------------------------------- 
------------------------------------------------------------- 
------------------------------------------------------------- 
--------------------------------------------------11---14--- 
----------------------?staring straight at you.?--11---14--- 
--11-9-11-14-11-9-11------------------------------11---14--- 
 
refrao 
 
------------------------------------------------------------- 
----?I still hear him screaming, ?Where do I hide??---------- 
------------------------------------------------------------- 
--11--9-11-9-9-9-9-9---4--2-4-4--2-0-11---------------------- 
--11--9-11-9-9-9-9-9---4--2-4-4--2-0-11---------------------- 
--11--9-11-9-9-9-9-9---4--2-4-4--2-0-11---------------------- 
 
------------------------------------------------------------- 
----?And he asks and I say, ?Hurry inside.?------------------ 
------------------------------------------------------------- 
--11--9-11-9-9-9-9-9---4--2-4-4--2-0-11---------------------- 
--11--9-11-9-9-9-9-9---4--2-4-4--2-0-11---------------------- 
--11--9-11-9-9-9-9-9---4--2-4-4--2-0-11---------------------- 
 
Verse 2: 
 
------------------------------------------------------------- 
------------------------------------------------------------- 
------------------------------------------------------------- 
------------------------------------------------------------- 
------------------------------------------------------------- 
--11-9-11-14-11-9-11---11-9-11-14-11-9-11?----11-11-11-11---- 
 
------------------------------------------------------------- 
------------------------------------------------------------- 
------------------------------------------------------------- 
-------------------------------------------14---------------- 
-------------------------------------------14---------------- 
--11-9-11-14-11-9-11---11-9-11-14-11-9-11--14---------------- 
 
------------------------------------------------------------- 
------------------------------------------------------------- 
------------------------------------------------------------- 
------------------------------------------------------------- 
----------------------?He said, she said,?------------------- 
--11-9-11-14-11-9-11----------------------------------------- 
 
------------------------------------------------------------- 
------------------------------------------------------------- 
------------------------------------------------------------- 
------------------------------------------------------------- 
--------------------?-?no she don?t.?------------------------ 
--11-9-11-14-11-9-11----------------------------------------- 
 
------------------------------------------------------------- 
------------------------------------------------------------- 
------------------------------------------------------------- 
------------------------------------------------------------- 
----------------------?Be back before morning,?-------------- 
--11-9-11-14-11-9-11----------------------------------------- 
 
------------------------------------------------------------- 
------------------------------------------------------------- 
------------------------------------------------------------- 
-----------------------------------------------------11------ 
--------------------?-?you know she won?t.?----------11------ 
--11-9-11-14-11-9-11---------------------------11-11-11------ 
 
------------------------------------------------------------- 
------------------------------------------------------------- 
------------------------------------------------------------- 
------------------------------------------------------------- 
--------------------?Well, I remember that summer,??--------- 
--11-9-11-14-11-9-11-----------------------------0-0-0-0-0-0- 
                                                 ....p.m..... 
 
------------------------------------------------------------- 
------------------------------------------------------------- 
------------------------------------------------------------- 
------------------------------------------------------------- 
----------------------?like yesterday.??--------------------- 
--11-9-11-14-11-9-11------11--11--11--11--------------------- 
 
------------------------------------------------------------- 
------------------------------------------------------------- 
------------------------------------------------------------- 
------------------------------------------------------------- 
----------------------?And I remember his mother,?----------- 
--11-9-11-14-11-9-11-----------------------------0-0-0-0-0-0- 
                                                 ....p.m..... 
 
------------------------------------------------------------- 
------------------------------------------------------------- 
------------------------------------------------------------- 
--------------------------------------------------11---14--- 
---------------------?as she was dragged away.?---11---14--- 
--11-9-11-14-11-9-11------------------------------11---14--- 
 
refrao------------------------------------------------------------- 
----?I still hear him screaming, ?Where do I hide??---------- 
------------------------------------------------------------- 
--11--9-11-9-9-9-9-9---4--2-4-4--2-0-11---------------------- 
--11--9-11-9-9-9-9-9---4--2-4-4--2-0-11---------------------- 
--11--9-11-9-9-9-9-9---4--2-4-4--2-0-11---------------------- 
 
------------------------------------------------------------- 
----?And he asks and I say, ?Hurry inside.?------------------ 
------------------------------------------------------------- 
--11--9-11-9-9-9-9-9---4--2-4-4--2-0-11---------------------- 
--11--9-11-9-9-9-9-9---4--2-4-4--2-0-11---------------------- 
--11--9-11-9-9-9-9-9---4--2-4-4--2-0-11---------------------- 
 
------------------------------------------------------------- 
----?A whole lot of memories, yours and not mine.?----------- 
------------------------------------------------------------- 
--11------9------4--2-4-4--2-0-11---------------------------- 
--11------9------4--2-4-4--2-0-11---------------------------- 
--11------9------4--2-4-4--2-0-11---------------------------- 
 
------------------------------------------------------------- 
----?And he asks and I say, ?Hurry inside.?------------------ 
------------------------------------------------------------- 
--11--9-11-9-9-9-9-9---4--2-4-4--2-0-11---------------------- 
--11--9-11-9-9-9-9-9---4--2-4-4--2-0-11---------------------- 
--11--9-11-9-9-9-9-9---4--2-4-4--2-0-11---------------------- 
 
Bridge: 
 
------------------------------------------------------------- 
------------------------------------------------------------- 
------------------------------------------------------------- 
------------------------11-9-------------------------11-9---- 
------------------------11-9-------------------------11-9---- 
--11-9-11-9-11-9-11-9---11-9---11-9-11-9-11-9-11-9---11-9---- 
  .......p.m.........          ........p.m........ 
 
------------------------------------------------------------------ 
------------------------------------------------------------------ 
------------------------------------------------------------------ 
------------------------------------------------------------------ 
------------------------------------------------------------------ 
-11--11-9-11-14--14-14-0-14-14?16(half)-14-16b(whole)-16-14-11-11? 
 
------------------------------------------------------------- 
------------------------------------------------------------- 
------------------------------------------------------------- 
--------------------------------9-9--9-9--9------------------ 
--------------------------------9-9--9-9--9------------------ 
-0-9-11--11-9-11-14-14-14-11-9--9-9--9-9--9------------------ 
 
solo 
 
------------------------------------------------------------- 
------------------------------------------------------------- 
------------------------------------------------------------- 
--11--9-11-9-9-9-9-9---4--2-4-4--2-0-11---------------------- 
--11--9-11-9-9-9-9-9---4--2-4-4--2-0-11---------------------- 
--11--9-11-9-9-9-9-9---4--2-4-4--2-0-11---------------------- 
 
------------------------------------------------------------- 
------------------------------------------------------------- 
------------------------------------------------------------- 
--11--9-11-9-9-9-9-9---4--2-4-4--2-0-11---------------------- 
--11--9-11-9-9-9-9-9---4--2-4-4--2-0-11---------------------- 
--11--9-11-9-9-9-9-9---4--2-4-4--2-0-11---------------------- 
 
------------------------------------------------------------- 
------------------------------------------------------------- 
------------------------------------------------------------- 
--11------9------4--2-4-4--2-0-11---------------------------- 
--11------9------4--2-4-4--2-0-11---------------------------- 
--11------9------4--2-4-4--2-0-11---------------------------- 
 
------------------------------------------------------------- 
------------------------------------------------------------- 
------------------------------------------------------------- 
--11--9-11-9-9-9-9-9---4--2-4-4--2-0-11---------------------- 
--11--9-11-9-9-9-9-9---4--2-4-4--2-0-11---------------------- 
--11--9-11-9-9-9-9-9---4--2-4-4--2-0-11---------------------- 
 
Verse 3: 
 
------------------------------------------------------------- 
------------------------------------------------------------- 
------------------------------------------------------------- 
------------------------------------------------------------- 
----------------------?Got a criminal record,?--------------- 
--11-9-11-14-11-9-11-----------"I can't cross state lines."-- 
 
------------------------------------------------------------- 
------------------------------------------------------------- 
------------------------------------------------------------- 
----------------------"First on the bad list,"--------------- 
-------------------------------"And you're last on mine."---- 
------------------------------------x-x-x-x-x-x-x-x---------- 
                                    (tapping w/ pick) 
 
------------------------------------------------------------- 
------------------------------------------------------------- 
------------------------------------------------------------- 
------------------------------------------------------------- 
----------------------?Lookin? for a scapegoat.??------------ 
--11-9-11-14-11-9-11-----------------------------0-0-0-0-0-0- 
                                                 ....p.m..... 
 
------------------------------------------------------------- 
------------------------------------------------------------- 
------------------------------------------------------------- 
------------------------------------------------------------- 
----------------------?I?m long past due.??------------------ 
--11-9-11-14-11-9-11------11--11--11--11--------------------- 
 
------------------------------------------------------------- 
------------------------------------------------------------- 
------------------------------------------------------------- 
------------------------------------------------------------- 
----------------------?Walkin? down the aisle,?-?------------ 
--11-9-11-14-11-9-11-----------------------------0-0-0-0-0-0- 
                                                 ....p.m..... 
 
------------------------------------------------------------- 
------------------------------------------------------------- 
------------------------------------------------------------- 
--------------------------------------------------11---14--- 
----------------------?staring straight at you.?--11---14--- 
--11-9-11-14-11-9-11------------------------------11---14--- 
 
refrao 
------------------------------------------------------------- 
----?I still hear him screaming, ?Where do I hide??---------- 
------------------------------------------------------------- 
--11--9-11-9-9-9-9-9---4--2-4-4--2-0-11---------------------- 
--11--9-11-9-9-9-9-9---4--2-4-4--2-0-11---------------------- 
--11--9-11-9-9-9-9-9---4--2-4-4--2-0-11---------------------- 
 
------------------------------------------------------------- 
----?And he asks and I say, ?Hurry inside.?------------------ 
------------------------------------------------------------- 
--11--9-11-9-9-9-9-9---4--2-4-4--2-0-11---------------------- 
--11--9-11-9-9-9-9-9---4--2-4-4--2-0-11---------------------- 
--11--9-11-9-9-9-9-9---4--2-4-4--2-0-11---------------------- 
 
------------------------------------------------------------- 
----?A whole lot of memories, yours and not mine.?----------- 
------------------------------------------------------------- 
--11------9------4--2-4-4--2-0-11---------------------------- 
--11------9------4--2-4-4--2-0-11---------------------------- 
--11------9------4--2-4-4--2-0-11---------------------------- 
 
------------------------------------------------------------- 
----?And he asks and I say, ?Hurry inside.?------------------ 
------------------------------------------------------------- 
--11--9-11-9-9-9-9-9---4--2-4-4--2-0-11---------------------- 
--11--9-11-9-9-9-9-9---4--2-4-4--2-0-11---------------------- 
--11--9-11-9-9-9-9-9---4--2-4-4--2-0-11---------------------- 
 
------------------------------------------------------------- 
------"Where do I hide?"------------------------------------- 
------------------------------------------------------------- 
--14--------9----------4--2-4-4--2-0------------------------- 
--14--------9----------4--2-4-4--2-0------------------------- 
--14--------9----------4--2-4-4--2-0------------------------- 
 
 
_______________________________________________________ 
Contribuição: vitor franca netto chiodi(nick_eu_back_lp@yahoo.com.br) 

	  

Demande la vidéo "Where Do I Hide" - Download Nickelback Where Do I Hide mp3

il n'est pas une leçon vidéo pour cette chanson

demander
Avance 1 tonAvance 1 ton
Half key step upAvance 1/2 ton
Half key step downRecule 1/2 ton
Full key step downRecule 1 ton

Envoyez vos commentaires ci-dessous. 140

0 commentaires

 
lestabs
rechercher
Petaxxon
défilement automatique temps agrandir réduire changement de couleur nasquer les accords dessins
tab accords montrent lestabs YouTube lestabs masquer onglets lestabs vers le haut tab