Nickelback

accueil > Nickelback > accords

Nickelback

Yanking Out My...

Difficulté: aucun niveauaucun niveau

tuner corriger ajouter à songbook version imprimable version texte version rtf e-mail
accordstabbassetambourharmoniquesflûteéclatclavier Guitar Pro
accords

Yanking Out My...

	  Intro:
E|-----------------|-------------------|---------------(3x)|
B|-----------------|-------------------|-------------------|
G|-----------------|-------------------|-------------------|
D|-0-7-7--0-7-7--0-7-7--0-7-7------------------------------|
A|-0-7-7--0-7-7--0-7-7--0-7-7------------------------------|
D|-0-7-7--0-7-7--0-7-7--0-7-7------------------------------|

Verse(essa parte se faz abafando!):
E|-----------------|-------------------|---------------(3x)|
B|-----------------|-------------------|-------------------|
G|-----------------|-------------------|-------------------|
D|-----------------|-------------------|-------------------|
A|-----------------|-------------------|-------3-3-3-------|
D|-7-7-7-0-7-7-7-3-3-3-0-5-5-5--7-7-7-0-7-7-7-0------0-5-5-5|


Refrão:
Parte 1:
E|-----------------|-------------------|---------------(4x)|
B|-----------------|-------------------|-------------------|
G|-7-7-7-7-7-7-7---|-5-5-5-5-5-5-5-----|-------------------|
D|-7-7-7-7-7-7-7---|-5-5-5-5-5-5-5-----|-0-7-7--0-7-7--0-7-7--0-7-7----|
A|-5-5-5-5-5-5-5---|-3-3-3-3-3-3-3-----|-0-7-7--0-7-7--0-7-7--0-7-7----|
D|-----------------|-------------------|-0-7-7--0-7-7--0-7-7--0-7-7----|

E|-----------------|-------------------|-------------------|
B|-----------------|-------------------|-------------------|
G|-----------------|-------------------|-------------------|
D|-0-7-7--0-7-7--0-7-7-----------------|-------------------|
A|-0-7-7--0-7-7--0-7-7-----------------|-------------------|
D|-0-7-7--0-7-7--0-7-7---8-8-8-8-7-7-----------------------|

Parte 2:
E|-----------------|-------------------|---------------(2x)|
B|-----------------|-------------------|-------------------|
G|-----------------|---------------5-5-----5-5-------------|
D|-7-7-x-x-7-7-x-x-3-3-x-x-3-3-x-x-5-5-x-x-5-5-x-x-5-5-x-x-5-5-----|
A|-5-5-x-x-5-5-x-x-3-3-x-x-3-3-x-x-3-3-x-x-3-3-x-x-5-5-x-x-5-5-----|
D|-0-0-x-x-0-0-x-x-3-3-x-x-3-3-x-x-----x-x-----x-x-5-5-x-x-5-5-|

E|-----------------|-------------------|-------------------|
B|-----------------|-------------------|-------------------|
G|-----------------|-------------------|-------------------|
D|-3-3-0-3-3-0-0-3-|-------------------|-------------------|
A|-3-3-0-3-3-0-0-3-|-------------------|-------------------|
D|-3-3-0-3-3-0-0-3-|-------------------|-------------------|


E|-----------------|-------------------|-------------------|
B|-----------------|-------------------|-------------------|
G|-----------------|-------------------|-------------------|
D|-0-7-7--0-7-7--0-7-7--0-7-7----------|-------------------|
A|-0-7-7--0-7-7--0-7-7--0-7-7----------|-------------------|
D|-0-7-7--0-7-7--0-7-7--0-7-7-8-8-8-8-7-7--------------------|

Verse 2
Refrão,  
Parte 1: 3x
parte 2: 4x

Interlude:
E|-----------------------------------------------------(3x)|
B|---------------------------------------------------------|
G|-7-7-----7-7--10-10-12-12--7-7-----7-7-------------------|
D|-7-7-x-x-7-7--10-10-12-12--7-7-x-x-7-7--3-3-5-5----------|
A|-5-5-x-x-5-5--8--8--10-10--5-5-x-x-5-5--3-3-5-5----------|
D|-0-0-x-x-0-0---------------0-0-x-x-0-0--3-3-5-5----------|

E|-----------------|-------------------|-------------------|
B|-----------------|-------------------|-------------------|
G|-----------------|-------------------|-------------------|
D|-3-3-0-3-3-0-0-3-|-------------------|-------------------|
A|-3-3-0-3-3-0-0-3-|-------------------|-------------------|
D|-3-3-0-3-3-0-0-3-|-------------------|-------------------|

Verse 3
Refrão,
Parte 1: 3x 
parte 2: 4x

E|-----------------|-------------------|---------------(3x)|
B|-----------------|-------------------|-------------------|
G|-----------------|-------------------|-------------------|
D|-0-7-7--0-7-7--0-7-7--0-7-7------------------------------|
A|-0-7-7--0-7-7--0-7-7--0-7-7------------------------------|
D|-0-7-7--0-7-7--0-7-7--0-7-7------------------------------|

E|-----------------|-------------------|-------------------|
B|-----------------|-------------------|-------------------|
G|-----------------|-------------------|-------------------|
D|-10--------------|-------------------|-------------------|
A|-10--------------|-------------------|-------------------|
D|-10--------------|-------------------|-------------------|
	  

Demande la vidéo "Yanking Out My..." - Download Nickelback Yanking Out My... mp3

il n'est pas une leçon vidéo pour cette chanson

demander

Envoyez vos commentaires ci-dessous. 140

0 commentaires

 
lestabs
rechercher
Petaxxon
défilement automatique temps agrandir réduire changement de couleur nasquer les accords dessins
tab accords montrent lestabs YouTube lestabs masquer onglets lestabs vers le haut tab