Tryo

accueil > Tryo > accords

Tryo

C'est du roots

Difficulté: DébutantDébutant

tuner corriger ajouter à songbook version imprimable version texte version rtf e-mail
accordstabbassetambourharmoniquesflûteéclatclavier Guitar Pro
accords

C'est du roots

	  Intro :
| / / D / / / D / / / Bb/ / / C / | / / D / / / D / / / Bb/ / / C / | x2
|-------9-------------------------|-------9-------------------------|
|---------9-----------------------|---------9-----------------------|
|-7-----------------------9-5-7---|-7---------------9-9-----7-5-5---|
|-----------------7-7-------------|---------------------------------|
|---------------------------------|---------------------------------|
|---------------------------------|---------------------------------|

| / / Bb/ / / C / / / A / / / A / |
|---------------------------------|
|---------------------------------|
|--9-9-----7-5-5-6--6-6-6-6-6-6-6-|
|---------------------------------|
|---------------------------------|
|---------------------------------|



Couplet : 
| / / D / / / D / / / G / / / G / | / / D / / / D / / / A / / / A / | X2


Pont :
| / / G / / / G / / / A / / / A / | / / G / / / G / / / A / / / A / |


Refrain :
| / / D / / / D / / / G / / / G / | / / D / / / D / / / A / / / A / | X2

	  

Demande la vidéo "C'est du roots" - Download Tryo C'est du roots mp3

il n'est pas une leçon vidéo pour cette chanson

demander
Avance 1 tonAvance 1 ton
Half key step upAvance 1/2 ton
Half key step downRecule 1/2 ton
Full key step downRecule 1 ton

Envoyez vos commentaires ci-dessous. 140

0 commentaires

 
lestabs
rechercher
Petaxxon
défilement automatique temps agrandir réduire changement de couleur nasquer les accords dessins
tab accords montrent lestabs YouTube lestabs masquer onglets lestabs vers le haut tab